• Song:

    God With Us

  • Artist:

    Mercyme

  • Album:

    God With Us

-----------------------------------------------------------------------------
                  MercyMe - God With Us Bass Tab
-----------------------------------------------------------------------------
Pretty simple song, no difficult parts. Bass notes are correct, listen to the song to see how the
notes fit in. The last few minutes (the outro omitted from the radio version) either have no bass 
or it is barely noticable, so they are not tabbed.

Standard tuning (EADG)
4/4 time; Q=84

Verse (Bass does not come in until 0:22)
G|------------------------------------------------------------------|
D|------------------------------------------------------------------|
A|---------------------------------77h-77h-77h-77h------------------|
E|-77h-77h-77h-77h-44h-44h-44h-44h-----------------77h-77h-77h-77-7-|

Pre-chorus (0:43)
G|---------------------------------|
D|---------------------------------|
A|-99h-99h-99h-99h-77h-77h-77h-77h-|
E|---------------------------------|

Chorus (0:54)
G|-----------------------------------------------------------------|
D|-----------------------------------------------------------------|
A|---------------------------------9-9-9-9-9-9-9-9-9-9-9-9-9-9-9-6-|
E|-7-7-7-7-7-7-7-7-7-7-7-7-7-7-7-7---------------------------------|

G|-----------------------------------------------------------------|
D|-----------------------------------------------------------------|
A|-7-7-7-7-7-7-7-7-7-7-7-7-7-7-7-7---------------------------------|
E|---------------------------------7-7-7-7-7-7-7-7-7-7-7-7-7-7-7-7-|

G|-----------------------------------------------------------------|
D|-----------------------------------------------------------------|
A|---------------------------------9-9-9-9-9-9-9-9-9-9-9-9-9-9-9-9-|
E|-7-7-7-7-7-7-7-7-7-7-7-7-7-7-7-7---------------------------------|

G|-----------------------------------------------------------------|
D|-----------------------------------------------------------------|
A|-7-7-7-7-7-7-7-7-7-7-7-7-7-7-7-7---------------------------------|
E|---------------------------------7-7-7-7-7-7-7-7-7-7-7-7-7-7-7-7-|


Verse (1:37)
G|------------------------------------------------------------------|
D|------------------------------------------------------------------|
A|---------------------------------77h-77h-77h-77h------------------|
E|-77h-77h-77h-77h-44h-44h-44h-44h-----------------77h-77h-77h-77-7-|

Pre-chorus (1:58)
G|----------------------------------------------|
D|----------------------------------------------|
A|------------------------------77h-77h---------|
E|-77h-77/12-12-12-12-12-12-11h---------77h-77h-|

Chorus (2:08)
G|-----------------------------------------------------------------|
D|-----------------------------------------------------------------|
A|---------------------------------9-9-9-9-9-9-9-9-9-9-9-9-9-9-9-6-|
E|-7-7-7-7-7-7-7-7-7-7-7-7-7-7-7-7---------------------------------|

G|-----------------------------------------------------------------|
D|-----------------------------------------------------------------|
A|-7-7-7-7-7-7-7-7-7-7-7-7-7-7-7-7---------------------------------|
E|---------------------------------7-7-7-7-7-7-7-7-7-7-7-7-7-7-7-7-|

G|-----------------------------------------------------------------|
D|-----------------------------------------------------------------|
A|---------------------------------9-9-9-9-9-9-9-9-9-9-9-9-9-9-9-9-|
E|-7-7-7-7-7-7-7-7-7-7-7-7-7-7-7-7---------------------------------|

G|-----------------------------------------------------------------|
D|-----------------------------------------------------------------|
A|-7-7-7-7-7-7-7-7-7-7-7-7-7-7-7-7---------------------------------|
E|---------------------------------7-7-7-7-7-7-7-7-7-7-7-7-7-7-7-7-|

Bridge (2:52)
G|-----------------------------------------------------------------------------------------------|
D|-----------------------------------------------------------------------------------------------|
A|--------9h------7h----------------------------- 99h-99h-99h-99h-77h-77h-77h-77h----------------|
E|7h----------------------7h------77h-77h-77h-77h---------------------------------77h-77h-77h-77h|

Chorus (3:35)
G|-----------------------------------------------------------------|
D|-----------------------------------------------------------------|
A|---------------------------------9-9-9-9-9-9-9-9-9-9-9-9-9-9-9-9-|
E|-7-7-7-7-7-7-7-7-7-7-7-7-7-7-7-7---------------------------------|

G|-----------------------------------------------------------------|
D|-----------------------------------------------------------------|
A|-7-7-7-7-7-7-7-7-7-7-7-7-7-7-7-7---------------------------------|
E|---------------------------------7-7-7-7-7-7-7-7-7-7-7-7-7-7-7-7-|

G|-----------------------------------------------------------------|
D|-----------------------------------------------------------------|
A|---------------------------------9-9-9-9-9-9-9-9-9-9-9-9-9-9-9-6-|
E|-7-7-7-7-7-7-7-7-7-7-7-7-7-7-7-7---------------------------------|

G|-----------------------------------------------------------------|
D|-----------------------------------------------------------------|
A|-7-7-7-7-7-7-7-7-7-7-7-7-7-7-7-7---------------------------------|
E|---------------------------------7h------------------------------|
Show more