• Song:

    Empty

  • Artist:

    Metric

  • Album:

    Empty

Metric

Tuning: Standard

(Intro/Outro pt.One)
e|----------------------------------------------------------------------|
B|----------------------------------------------------------------------|
G|-------2-------0-------2--------4-------------------------------------|
D|---------0-------0-------0--------0-----4-------4-------4-------2-----|
A|-----2-------2-------2-------2--------2---2---2---2---2---2---2---2---|
E|---3-------3-------3-------3--------0-------0-------0-------0---------|

(Intro/Outro pt.Two)
e|----------------------------------------------------------------
B|----------------------------------------------------------------
G|----------------------------------------------------------------
D|-----2-------2-------2-------2-----4---4---4---4---4---4---4---4
A|---3---3---3---3---3---3---3---3-----5-------5-------5-------5--
E|-3-------3-------3-------3-------0-------0-------0-------0------


(Pt.Two ending)
e|--------------------------------------------------------------|
B|--------------------------------------------------------------|
G|--------------------------------------------------------------|
D|---5---5---5---5---5---5---5---5---5---5---5---5---5---5------|
A|-----7-------7-------7-------7-------7-------7-------7--------|
E|-0-------0-------0-------0-------0-------0-------0------------|

("Chorus")                   
  F                         HARD    A          C          G          C  B A
e|-----------------------------0-------------------------------------------|
B|-----------------------------0-------------------------------------------|
G|-----------------------------0-------------------------------------------|
D|-3-3-3-3-3-3-3-3-3-3-3-3-3-3-3----7--7--x-7--10-10-x-10-5--5--x-5--10-9-7|
A|-3-3-3-3-3-3-3-3-3-3-3-3-3-3-3----7--7--x-7--10-10-x-10-5--5--x-5--10-9-7|
E|-1-1-0-0-1-1-0-0-1-1-0-0-1-1-1----5--5--x-5--8--8--x-8--3--3--x-3--8--7-5|
Show more