eto ang unang ginawa kong tab, 
ako nga pla si mark gabriel,15 yrs. Old ,add nyo ko sa friendster blackrain_0021@yahoo.com ty!
Hi nga pla sa mga kaibigan ko sina rino,ren-ren,renz,lahat!
Pati cla Monique,mara,jinky,taja,angela,bamba at sa lahat!, sana magustuhan nyo!

E|--------------------------|  
B|--------------------------|
G|-------0-----2----2h4---0-|
D|------0-0-----------------|
A|--------------------------|
E|----3---------------------|

E|--------------------------|  
B|--------------------------|
G|-------0-----2----2h4---0-|
D|------0-0-----------------|
A|----2---------------------|
E|--------------------------|

E|--------------------------|  
B|--------------------------|
G|-------0-----2----2h4---0-|
D|------0-0-----------------|
A|----3---------------------|
E|--------------------------|

E|--------------------------|  
B|--------------------------|
G|-------0-----2h4--------0-|
D|------0-0----------0h2----|
A|----5---------------------|
E|--------------------------|
Show more