• Song:

    Wishing Well

  • Artist:

    The Airborne Toxic Event

  • Album:

    The Airborne Toxic Even...

Wishing Well - The Airborne Toxic Event


no bass until 0:40
G|-------------------|
D|-------------------|
A|-------------------|
E|-0-2-4-7--5~~--57/-|x2


0:52
no bass but i like to play this really lightly
G|-------------------|
D|-------------------|
A|-------------------|
E|-0~~------5~~------|x4


1:18
G|-------------------------------------|
D|-------------------------------------|
A|-77777777-77777777-------------------|
E|-------------------55555555-55555555-|x2

G|-------------------------------------|
D|-------------------------------------|
A|-------------------------------------|
E|-00000000-00000000-55555555-55555555-|x1

G|-------------------------------------|
D|-------------------------------------|
A|-77777777-77777777-------------------|
E|-------------------55555555-55555555-|x1

G|-------------------------------------|
D|-------------------------------------|
A|-------------------------------------|
E|-77777777-77777777-55555555-55555555-|x1

G|-----------------------------------------|
D|-----------------------------------------|
A|----------------------------------(11s)--|
E|-77777777-77777777-55557777-999911111111-|x1


1:55
G|-------------------------------------|
D|-------------------------------------|
A|-------------------------------------|
E|-00000000-00000000-55555555-55555555-|x2

G|-------------------------------------|
D|-------------------------------------|
A|-------------------------------------|
E|-00002222-44447777-55555555-555555777|x1

G|-----------------------------------------|
D|-----------------------------------------|
A|---------------------------------(11s)---|
E|-00002222-44447777-55557777-999911111111-|x1


2:20
just play it lightly like the verse
G|-------------------|
D|-------------------|
A|-------------------|
E|-0~~------5~~------|x4


2:45
G|-------------------------------------|
D|-------------------------------------|
A|-77777777-77777777-------------------|
E|-------------------55555555-55555555-|x2

G|-------------------------------------|
D|-------------------------------------|
A|-------------------------------------|
E|-00000000-00000000-55555555-55555555-|x1

G|-------------------------------------|
D|-------------------------------------|
A|-77777777-77777777-------------------|
E|-------------------55555555-55555555-|x1


3:16
G|-------------------------------------|
D|-------------------------------------|
A|-------------------------------------|
E|-00002222-44447777-55555555-55555555-|

G|-------------------------------------|
D|-------------------------------------|
A|-------------------------------------|
E|-77777777-77777777-55555555-55555555-|x2


3:29
G|-------------------------------------|
D|-------------------------------------|
A|-------------------------------------|
E|-77777777-77777777-5~~---------------|


3:39
G|-------------------|
D|-------------------|
A|-------------------|
E|-0~~------5~~------|play lightly until fade



Done! I didn't organize it in the "verse/chorus" way cause with some Airborne songs it's 
kind of hard
to distinguish but other than that I tried to make this as simple and easy to read as possible.
Show more