• Song:

    Another Number

  • Artist:

    The Cribs

  • Album:

    The Cribs

Another Number Tab by The Cribs


best band around at the min easily.....get more tabs up ppl


main riff

e-18---18--------------------18--|
b-19-------19-----------18-------|
g-18-----------18---18-----------|
d--------------------------------|
a--------------------------------|
e--------------------------------|
this is played as the main part of the song


e--18xxxxxx-18-xxxxx-18xxx-|
b--19xxxxxx-19-xxxxx-19xxx-|
g--18xxxxxx-18-xxxxx-18xxx-|
d--------------------------|
a--------------------------|
e--------------------------|

"ohooooh oooooooh ooohh"
e---18-18-18-18-18-18-18----18-18-18-18-18-18-18-18-18-|
b---19-19-19-19-19-19-19----18-18-18-18-18-18-18-18-18-|
g---18-18-18-18-18-18-18----18-18-18-18-18-18-18-18-19-|
d------------------------------------------------------|
a------------------------------------------------------|
e------------------------------------------------------|


then after the high pitched guitaring then its just the chords bashed out

e-6---6--------|
b-7---7--------|
g-6---8--------|
d-8---8--------|
a-6---6--------|
e-6---6--------|

tabbed by stu.f  www.myspace.com/stu_f
Show more