Intr: 
 --------------------------------------------------------
 --------------------------------------------------------
 --------------------------------------------------------  3X 
 ---------5--3--7--5------------------5--3---------------
 ---5--3---------------3/5--5---5--3--------3--3/5-------
 -0------------------------------------------------------

 -------------------
 -------------------
 -------------------  Riff 1
 -------------------     
 ---------3--5------
 ---3--5------------

 ------------------------------------------------------------
 ------------------------------------------------------------
 ------------------------------------------------------------
 ---------5--3--7--5--3--5--3-----------------5--3-----------
 ---5--3-----------------------3/5--5---5--3--------3--3/5---
 0-----------------------------------------------------------


Riff 1


C5
Stick it in your ear 
       C5
'Cause it ain't exactly clear 
C5
What you people hear 
  G5      A5          C5  C5    C5   C5  F5
I tell you that's right      oh yeah  


                C5
Sucker in the middle 
                C5
Blowing hot and cold 
              C5   G5    A5         C5  C5  C5   Riff
Cracking his whip on the American horse 


D5 (intr)
He's gone crazy, completely crazy        

Trying to tame the American horse


C5
Feather in his mane 
C5
Showing no fear 
       C5
Of a twisted shady fool 
 G5     A5          C5  C5    C5       C5  F5 
Tell you that's right,     that's right


                 C5
Truth's a mighty clear 
             C5
Forever on and on 
              C5
Never break a spirit 
  G5    A5         C5  C5  C5   Riff
Of the American horse



Riff  2
 -----------------------------
 -----------------------------
 -----------------------------
 -----------------------------
 ---3/5--3/5--3/5-------------
 ------------------7-6--5-4---
Crazy 
On the day they tried to tame 
The American horse



Riff 3
--------------------
--------------------
--------------------
--------------------
----3/5-------------
---------7-6--5-4---
Riding on a pony 
Riding against the wind 
And in came Brando 
And told it like this
Show more