#----------------------------------PLEASE NOTE---------------------------------#
#This file is the author's own work and represents their interpretation of the #
#song. You may only use this file for private study, scholarship, or research. #
#------------------------------------------------------------------------------#
SHE SELLS SANCTUARY
As recorded by The Cult
(From the 1996 Album HIGH OCTANE CULT)


Transcribed by GuitarPlayer

 Words and Music by The Cult

Gtr I (E A D G B E) - 'Untitled'
Gtr II (E A D G B E) - 'Untitled'
Gtr III (E A D G B E) - 'Untitled'


 Introduction
  Q=73
 4/4
  Gtr I
  <
  W          S  E S  E S  E S E S S S S   S E S E S H    +S
|----------|----------------------------|--------------------|
|----------|----------------------------|--------------------|
|----------|---14---12---11---7---5h7-5h|=7-5---7---2----(2)-|
|----------|-0----0----0----0---0-------|-----0---0----------|
|----------|----------------------------|--------------------|
|----------|----------------------------|--------------------|


  S  E S  E S  E S  E S  S  S  S    S  E S  E S  H     +S
|--------------------------------|-------------------------|
|--------------------------------|--------------15----(15)-|
|---14---12---16---14---12h14-12h|=14-12---14--------------|
|-0----0----0----0----0----------|-------0----0------------|
|--------------------------------|-------------------------|
|--------------------------------|-------------------------|


   Pre Verse
    D5    G5/D  D  G5/D   D         CsusD/D D5G5/D
    Gtrs I, II
     E  S  E  S  E  S  S  E E S S   E S E S E  S  S  E Q
||--------------------------------|------------------------||
||o-------------------------------|-----------------------o||
||--14-14-12-12-11-12p11--7-7-7-7-|-5-5-7-7-2-12p11--7-7---||
||---0--0--0--0--0--0-(0)-0-0-0-0-|-0-0-0-0-0--0-(0)-0-0---||
||o-------------------------------|-----------------------o||
||--------------------------------|------------------------||
|
|   Gtr III
|    W                              H          S  S  E Q
||--------------------------------|---------------3--3-3---||
||o-------------------------------|---------------3--3-3--o||
||--------------------------------|---------------0--0-0---||
||--------------------------------|---------------x--x-x---||
||o-------------------------------|---------------2--2-2--o||
||--------------------------------|---------------3--3-3---||


   Verse
    D                                 Csus2/D         G5/D
    Gtrs I, II
      PM|   PM|   PM  PM|   PM|   PM    PM|   PM|   PM   PM|    PM|    PM
    S S S S S S S S S S S S S S S S   S S S S S S S S  S S S  S S S  S S
||----------------------------------|--------------------------------------||
||o---------------------------------|-------------------------------------o||
||--7-----7-----7---7-----7-----7---|-5-----5-----5---12-----12-----12-----||
||--0-0-0-0-0-0-0-0-0-0-0-0-0-0-0-0-|-0-0-0-0-0-0-0-0--0-0-0--0-0-0--0-0---||
||o---------------------------------|-------------------------------------o||
||----------------------------------|--------------------------------------||


   Interlude
    G5/D5                       Bm/DD5      G5/D                  D
     S  S   S  E  S  E  S  S  S  S   E  E    S   S  S  E  S  E  S  S  E E E
||----------------------------------------|----------------------------------||
||o---------------------------------------|---------------------------------o||
||--12s14--14-14-14-14-14-14-14s16--14-14p|=12--12-12-12-12-12-12p11--7-7-7--||
||---0-(0)--0--0--0--0--0--0--0-(0)--0--0-|-(0)--0--0--0--0--0--0-(0)-0-0-0--||
||o---------------------------------------|---------------------------------o||
||----------------------------------------|----------------------------------||
|
|   Gtr III
|    W                                       H                  S  S  E Q
||----------------------------------------|------------------------3--3-3----||
||o---------------------------------------|------------------------3--3-3---o||
||----------------------------------------|------------------------0--0-0----||
||----------------------------------------|------------------------x--x-x----||
||o---------------------------------------|------------------------2--2-2---o||
||----------------------------------------|------------------------3--3-3----||


   Chorus
    D                                 Csus2/D         G5/D
      PM|   PM|   PM  PM|   PM|   PM    PM|   PM|   PM   PM|    PM|    PM
    S S S S S S S S S S S S S S S S   S S S S S S S S  S S S  S S S  S S
||----------------------------------|--------------------------------------||
||o---------------------------------|-------------------------------------o||
||--7-----7-----7---7-----7-----7---|-5-----5-----5---12-----12-----12-----||
||--0-0-0-0-0-0-0-0-0-0-0-0-0-0-0-0-|-0-0-0-0-0-0-0-0--0-0-0--0-0-0--0-0---||
||o---------------------------------|-------------------------------------o||
||----------------------------------|--------------------------------------||


    D                                 Csus2/D         G5/D
      PM|   PM|   PM  PM|   PM|   PM    PM|   PM|   PM   PM|    PM|    PM
    S S S S S S S S S S S S S S S S   S S S S S S S S  S S S  S S S  S S
||----------------------------------|--------------------------------------||
||o---------------------------------|-------------------------------------o||
||--7-----7-----7---7-----7-----7---|-5-----5-----5---12-----12-----12-----||
||--0-0-0-0-0-0-0-0-0-0-0-0-0-0-0-0-|-0-0-0-0-0-0-0-0--0-0-0--0-0-0--0-0---||
||o---------------------------------|-------------------------------------o||
||----------------------------------|--------------------------------------||
|
|   Gtr III
|   W                                 H                S S E    Q
||----------------------------------|--------------------3-3----3----------||
||o---------------------------------|--------------------3-3----3---------o||
||----------------------------------|--------------------0-0----0----------||
||----------------------------------|--------------------x-x----x----------||
||o---------------------------------|--------------------2-2----2---------o||
||----------------------------------|--------------------3-3----3----------||


   Pre Verse
    D5    G5/D  D  G5/D   D         CsusD/D D5G5/D
     E  S  E  S  E  S  S  E E S S   E S E S E  S  S  E Q
||--------------------------------|------------------------||
||o-------------------------------|-----------------------o||
||--14-14-12-12-11-12p11--7-7-7-7-|-5-5-7-7-2-12p11--7-7---||
||---0--0--0--0--0--0-(0)-0-0-0-0-|-0-0-0-0-0--0-(0)-0-0---||
||o-------------------------------|-----------------------o||
||--------------------------------|------------------------||
|
|    W                              H          S  S  E Q
||--------------------------------|---------------3--3-3---||
||o-------------------------------|---------------3--3-3--o||
||--------------------------------|---------------0--0-0---||
||--------------------------------|---------------x--x-x---||
||o-------------------------------|---------------2--2-2--o||
||--------------------------------|---------------3--3-3---||


   Verse
    D                                 Csus2/D         G5/D
      PM|   PM|   PM  PM|   PM|   PM    PM|   PM|   PM   PM|    PM|    PM
    S S S S S S S S S S S S S S S S   S S S S S S S S  S S S  S S S  S S
||----------------------------------|--------------------------------------||
||o---------------------------------|-------------------------------------o||
||--7-----7-----7---7-----7-----7---|-5-----5-----5---12-----12-----12-----||
||--0-0-0-0-0-0-0-0-0-0-0-0-0-0-0-0-|-0-0-0-0-0-0-0-0--0-0-0--0-0-0--0-0---||
||o---------------------------------|-------------------------------------o||
||----------------------------------|--------------------------------------||


   Interlude
    G5/D5                       Bm/DD5      G5/D                  D
     S  S   S  E  S  E  S  S  S  S   E  E    S   S  S  E  S  E  S  S  E E E
||----------------------------------------|----------------------------------||
||o---------------------------------------|---------------------------------o||
||--12s14--14-14-14-14-14-14-14s16--14-14p|=12--12-12-12-12-12-12p11--7-7-7--||
||---0-(0)--0--0--0--0--0--0--0-(0)--0--0-|-(0)--0--0--0--0--0--0-(0)-0-0-0--||
||o---------------------------------------|---------------------------------o||
||----------------------------------------|----------------------------------||
|
|   Gtr III
|    W                                       H                  S  S  E Q
||----------------------------------------|------------------------3--3-3----||
||o---------------------------------------|------------------------3--3-3---o||
||----------------------------------------|------------------------0--0-0----||
||----------------------------------------|------------------------x--x-x----||
||o---------------------------------------|------------------------2--2-2---o||
||----------------------------------------|------------------------3--3-3----||


   Chorus
    D                                 Csus2/D         G5/D
      PM|   PM|   PM  PM|   PM|   PM    PM|   PM|   PM   PM|    PM|    PM
    S S S S S S S S S S S S S S S S   S S S S S S S S  S S S  S S S  S S   4x
||----------------------------------|--------------------------------------||
||o---------------------------------|-------------------------------------o||
||--7-----7-----7---7-----7-----7---|-5-----5-----5---12-----12-----12-----||
||--0-0-0-0-0-0-0-0-0-0-0-0-0-0-0-0-|-0-0-0-0-0-0-0-0--0-0-0--0-0-0--0-0---||
||o---------------------------------|-------------------------------------o||
||----------------------------------|--------------------------------------||


    D                                 Csus2/D         G5/D
      PM|   PM|   PM  PM|   PM|   PM    PM|   PM|   PM   PM|    PM|    PM
    S S S S S S S S S S S S S S S S   S S S S S S S S  S S S  S S S  S S   4x
||----------------------------------|--------------------------------------||
||o---------------------------------|-------------------------------------o||
||--7-----7-----7---7-----7-----7---|-5-----5-----5---12-----12-----12-----||
||--0-0-0-0-0-0-0-0-0-0-0-0-0-0-0-0-|-0-0-0-0-0-0-0-0--0-0-0--0-0-0--0-0---||
||o---------------------------------|-------------------------------------o||
||----------------------------------|--------------------------------------||
|
|   Gtr III
|   W                                 H                S S E    Q          4x
||----------------------------------|--------------------3-3----3----------||
||o---------------------------------|--------------------3-3----3---------o||
||----------------------------------|--------------------0-0----0----------||
||----------------------------------|--------------------x-x----x----------||
||o---------------------------------|--------------------2-2----2---------o||
||----------------------------------|--------------------3-3----3----------||


 Main Riff
                                           C5D5
  Gtr I
  S  E S  E S  E S E S S S S   S E S E S H       +S
|----------------------------|-----------------------|
|----------------------------|-----------------------|
|---14---12---11---7---5h7-5h|=7-5---7---2-------(2)-|
|-0----0----0----0---0-------|-----0---0-------------|
|----------------------------|-----------------------|
|----------------------------|-----------------------|
|
| Gtr II
| W                            H           E E Q
|----------------------------|-----------------------|
|----------------------------|-----------------------|
|----------------------------|-------------5S7-7-----|
|----------------------------|-------------5S7-7-----|
|----------------------------|-------------3S5-5-----|
|----------------------------|-----------------------|


   S   E S  E S  E S  E S  S  S  S    S  E S  E S  H     +S
|----------------------------------|-------------------------|
|----------------------------------|--------------15----(15)-|
|-----14---12---16---14---12h14-12h|=14-12---14--------------|
|--0-----0----0----0----0----------|-------0----0------------|
|----------------------------------|-------------------------|
|----------------------------------|-------------------------|
|
| Gtr II
| +W                                  W
|----------------------------------|-------------------------|
|----------------------------------|-------------------------|
|-(7)------------------------------|-------------------------|
|-(7)------------------------------|-------------------------|
|-(5)------------------------------|-------------------------|
|----------------------------------|-------------------------|


 Verse
  D5 G5/D  D5 G5/D  D5 G5/D  D5 G5/D  D5
  Gtrs I, II
   S  S  S  S  S  S  S  S  S  S  S  S  Q
|-----------------------------------------|
|-----------------------------------------|
|-14-12-11-14-12-11-14-12-11-14-12-11-14--|
|--0--0--0--0--0--0--0--0--0--0--0--0--0--|
|-----------------------------------------|
|-----------------------------------------|
|
| Gtr III
|  W
|-----------------------------------------|
|-----------------------------------------|
|-----------------------------------------|
|-----------------------------------------|
|-----------------------------------------|
|-----------------------------------------|


  D5 G5/D  D5 G5/D  D5 G5/D  D5 G5/D  D5
   S  S  S  S  S  S  S  S  S  S  S  S  Q
|-----------------------------------------|
|-----------------------------------------|
|-14-12-11-14-12-11-14-12-11-14-12-11-14--|
|--0--0--0--0--0--0--0--0--0--0--0--0--0--|
|-----------------------------------------|
|-----------------------------------------|
|
|  H                       S  S  E     Q
|-----------------------------3--3-----3--|
|-----------------------------3--3-----3--|
|-----------------------------0--0-----0--|
|-----------------------------x--x-----x--|
|-----------------------------2--2-----2--|
|-----------------------------3--3-----3--|


   Chorus
    D                                 Csus2/D         G5/D
    Gtrs I, II
      PM|   PM|   PM  PM|   PM|   PM    PM|   PM|   PM   PM|    PM|    PM
    S S S S S S S S S S S S S S S S   S S S S S S S S  S S S  S S S  S S   4x
||----------------------------------|--------------------------------------||
||o---------------------------------|-------------------------------------o||
||--7-----7-----7---7-----7-----7---|-5-----5-----5---12-----12-----12-----||
||--0-0-0-0-0-0-0-0-0-0-0-0-0-0-0-0-|-0-0-0-0-0-0-0-0--0-0-0--0-0-0--0-0---||
||o---------------------------------|-------------------------------------o||
||----------------------------------|--------------------------------------||
|
|   Gtr III
|   W                                 H                S S E    Q          4x
||----------------------------------|--------------------3-3----3----------||
||o---------------------------------|--------------------3-3----3---------o||
||----------------------------------|--------------------0-0----0----------||
||----------------------------------|--------------------x-x----x----------||
||o---------------------------------|--------------------2-2----2---------o||
||----------------------------------|--------------------3-3----3----------||


 Outro
                                             G
  S  E S  E S  E S E S S S S   S E S E S H         +S
|----------------------------|-------------------------|
|----------------------------|-------------------------|
|---14---12---11---7---5h7-5h|=7-5---7---2---------(2)-|
|-0----0----0----0---0-------|-----0---0---------------|
|----------------------------|-------------------------|
|----------------------------|-------------------------|
|
| W                            H           S S E Q
|----------------------------|---------------3-3-3-----|
|----------------------------|---------------3-3-3-----|
|----------------------------|---------------0-0-0-----|
|----------------------------|---------------x-x-x-----|
|----------------------------|---------------2-2-2-----|
|----------------------------|---------------3-3-3-----|


                                  H.=H
  D5    G5/D  D  G5/D             CsusD/D D5G5/D
   E  S  E  S  E  S  S  e E S S   E S E S E  S  S   E  E E
|-------------------------------|--------------------------|
|-------------------------------|--------------------------|
|-14-14-12-12-11-12p11--7-7-7-7-|-5-5-7-7-2-12p11--14-12-7-|
|--0--0--0--0--0--0-(0)-0-0-0-0-|-0-0-0-0-0--0-(0)--0--0-0-|
|-------------------------------|--------------------------|
|-------------------------------|--------------------------|
|
|  W                              H          S  S   E  Q
|-------------------------------|---------------3---3--3---|
|-------------------------------|---------------3---3--3---|
|-------------------------------|---------------0---0--0---|
|-------------------------------|---------------x---x--x---|
|-------------------------------|---------------2---2--2---|
|-------------------------------|---------------3---3--3---|


  +W                             W
|------------------------------|--------------------*|
|------------------------------|--------------------*|
|-(7)--------------------------|--------------------*|
|-(0)--------------------------|--------------------*|
|------------------------------|--------------------*|
|------------------------------|--------------------*|
|
| Gtr I
|  S   E S  E S  E S E S S S S   S E S E S H    +S
|------------------------------|--------------------*|
|------------------------------|--------------------*|
|-----14---12---11---7---5h7-5h|=7-5---7---2----(2)-*|
|--0-----0----0----0---0-------|-----0---0----------*|
|------------------------------|--------------------*|
|------------------------------|--------------------*|

--------------------------------------------------------------------------------


Duration Legend
---------------
W - whole; H - half; Q - quarter; E - 8th; S - 16th; T - 32nd; X - 64th; a - acciaccatura
+ - note tied to previous; . - note dotted; .. - note double dotted
Uncapitalized letters represent notes that are staccato (1/2 duration)
Irregular groupings are notated above the duration line
Duration letters will always appear directly above the note/fret number it represents the
duration for.  Duration letters with no fret number below them represent rests.  Multi-
bar rests are notated in the form Wxn, where n is the number of bars to rest for.  Low
melody durations appear below the staff

Tablature Legend
----------------
 h   - hammer-on
 p   - pull-off
 b   - bend
 pb  - pre-bend
 r   - bend release (if no number after the r, then release immediately)
 /\  - slide into or out of (from/to "nowhere")
 s   - legato slide
 S   - shift slide
 - natural harmonic
[n]  - artificial harmonic
n(n) - tapped harmonic
 ~   - vibrato
 tr  - trill
 T   - tap
 TP  - trem. picking
 PM  - palm muting
\n/  - tremolo bar dip; n = amount to dip
 \n  - tremolo bar down
 n/  - tremolo bar up
/n\  - tremolo bar inverted dip
 =   - hold bend; also acts as connecting device for hammers/pulls
 <> - volume swell (louder/softer)
 x   - on rhythm slash represents muted slash
 o   - on rhythm slash represents single note slash

Misc Legend
-----------
 |  - bar
||  - double bar
||o - repeat start
o|| - repeat end
*|  - double bar (ending)
 :  - bar (freetime)
 $  - Segno
 &  - Coda
Tempo markers -  = BPM(8/16=s8/s16), where s8 = swing 8ths, s16 = swing 16ths
Show more