SPIRITWALKER
The Cult

Taken from the Beggars Banquet album Dreamtime (1984)

Transcribed by: Damian Pamminger (TwitcheD_85@hotmail.com)

Standard tuning: E A D G

Fig. 1
| ------------------------------|
|-5-5----------2------3---------|
| ------------------------------|
| ------------------------------|

Fig. 2a
|----------------------------------------------------------------------|
|-5-5-5-5-5-5-5-5-5-5-5-5-5-5-5-5-2-2-2-2-2-2-2-2-3-3-3-3-3-3-3-3------|
|----------------------------------------------------------------------|
|----------------------------------------------------------------------|

Fig. 2b
|----------------------------------------------------------------------|
|-5-5-5-5-5-5-5-5-5-5-5-5-5-5-5-5-2-2-2-2-2-2-2-2-3-3-3-2-3-2-3-2------|
|----------------------------------------------------------------------|
|----------------------------------------------------------------------|

Fig. 2c
|----------------------------------------------------------------------|
|-5---5---5-5-5-5-5-5-5-5-5-5-5-5-2-2-2-2-2-2-2-2-3-3-3-3-3-3-3-3------|
|----------------------------------------------------------------------|
|----------------------------------------------------------------------|

End
|------------------|
|-5---5------------|
|------------------|
|------------------|
Show more