Artist: The Cult
Title: The Phoenix
Tabbed by Chipstar

0:10   Intro
G|-------------------------------------------------------------------------|
D|-------------------------------------------------------------------------|
A|-------------------------------------------------------------------------|
E|---12-12\7---12--12\7---12--12\7---12--12\7---12-12-12-10-7--------------|

0:28   Verse
G|-------------------------------------------------------------------------|
D|-------------------------------------------------------------------------|
A|-------------------------------------------------------------------------|
E|-0000--33333--222--1111--0000--33333--222--1111--0000--33333--222--1111--|


G|-------------------------------------------------------------------------|
D|---------------------------------------------------22--------------------|
A|-------------------------------------------------------------------------|
E|-0000--33333--222--1111--0000--33333--222--1111--00----33333--222--1111--|

2:18   Bridge
G|-------------------------------------------------------------------------|
D|-------------------------------------------------------------------------|
A|-------------------------------------------------------------------------|
E|-3-----0-----3-----0-----3-----0-----3-----0-----3-----0-----------------|

2:34   Verse
G|-------------------------------------------------------------------------|
D|-------------------------------------------------------------------3320--|
A|-------------------------------------------------------------------------|
E|-0000--33333--222--1111--0000--33333--222--1111--0000--33333--222--------|


G|-------------------------------------------------------------------------|
D|---------------------------------------------------22--------------------|
A|-------------------------------------------------------------------------|
E|-0000--33333--222--1111--0000--33333--222--1111--00----33333--222--1111--|


G|-------------------------------------------------------------------------|
D|-------------------------------------------------------------------------|
A|-------------------------------------------------------------------------|
E|-0000--33333--222--1111--0000--33333--222--1111--0000--33333--555--3333--|


G|-------------------------------------------------------------------------|
D|---------------------------------------------------22---------555--7755--|
A|-------------------------------------------------------------------------|
E|-0000--33333--222--1111--0000--33333--222--1111--00----33333-------------|

4:30
G|-------------------------------------------------------------------------|
D|-------------------------------------------------------------------------|
A|-------------------3320-333333333333333333-------------------------------|
E|-0-0---3-33--5-55--------------------------------------------------------|
Show more