• Song:

    Pinball Wizard

  • Artist:

    The Who

  • Album:

    The Ultimate Collection

Verse         
       [Starts 0:32]
|---------------|---------------|---------------|---------------|
|-----9-------9-|-----7-------7-|-----5-------5-|-----4-------4-|
|-------7-9-----|-------5-7-----|-------3-5-----|-------2-4-----|
|-7-7-------7---|-5-5-------5---|-3-3-------3---|-2-2-------2---|
        x 2            x 2              x 2              x 1

  "sure plays a mean pinball...."
|-------------|
|-------------|
|-------0-2-2-|
|-2-2-0-------|  {repeat verse & <<<>>

Chorus "hes a pinball wizard..."
                                  [Starts 2:02]
|---------------------------------------------------------------------|
|-----------------------------------------4-0-0-0-0-0-0-0-0-----------|
|-------2-2-------2-2-------2-2-2/5-5-5-5-----------------------------|
|-0-0-2-----0-0-2-----0-0-2-------------------------------------------| listen to timing 


Verse 
         [Starts 2:30] 
|----------------------|-----------------|---------------|---------------|
|-------12----------12-|-----10-------10-|-----8-------8-|---------------|
|----------10-12-------|--------8-10-----|-------6-8-----|---------------|
|-10-10----------10----|-8-8---------8---|-6-6-------6---|-5-5-5-5-5-----|
          x 2                  x 2              x 2             x 1

 "sure plays a mean pinball...."
|---------------|                          
|-0-0-----------|
|-----3-2-------|
|---------3-----| 

ending trails out with something like this
|---------------|
|---------------|
|-0-0-0/8-------|
|---------------|

---if you listen to timing the parts will fall in place... all major parts are right... iffy on quiet background notes---

this is my first real tab so please rate!! take in mind i've only been playing for less than a year and self taught!
Show more