• Song:

    Nj Legion Iced Tea

  • Artist:

    A Day To Remember

  • Album:

    Homesick (Special Editi...

A DAY TO REMEMBER          - NJ LEGION ICED TEA
INTRO
pause.
|---------------------------------------|
|---------------------------------------|
|---------------------------------------|   x2
|--99999999-55555555-00000000-77777777--|

VERSE PT. 1
|----------------------------------------------------|
|----------------------------------------------------|
|----------------12-----12---------------12-----12---|
|--000-000-00000----000----000-000-00000----000------|
PT. 2
|----------------------|
|----------------------|
|----------------------|
|--99999999-55555555---|
REPEAT PT. 1 
THEN
|----------------------|
|----------------------|
|----------------------|
|--55555555-77777777---|

PRE-CHORUS
|----------------------------------|
|----------------------------------|
|----------------------------------|
|--99-999-9-9-9--77-777-7-7-7-77---|

|---------------------------------------|
|---------------------------------------|
|---------------------------------------|
|--4444444444444444-55555555-77777777---|

pause.

CHORUS
|----------------------------------------|
|----------------------------------------|
|----------------------------------------|   x2
|--99999999-55555555-00000000-77777777---|

VERSE
PRE-CHORUS
CHORUS   x4

BRIDGE
|----------------------------------------------------|
|----------------------------------------------------|
|----------------------------------------------------|
|--2-222222222222-5-555555555555---------------------|

|------------------------------------------------------------|
|------------------------------------------------------------|
|------------------------------------------------------------|
|--9-999999-7-777777-5-55555555555-55------------------------|

|---------------------------------------------------------------------------------------|
|----------------------------------------------------------------------------------5~---|
|----------------------------------------------------------------------------------5~---|
|--2-222222-2-2-2-2-2-2-2-2--5-555555-5-5-5-5-5-5-5-5--9--9-9-9-9-9--7--7-7-7-7-7--5~---|

BREAKDOWN
|-------------------------------------|
|-------------------------------------|
|-------------------------------------|   x4
|--0-00-00--0-00-0000000--------------|

CHORUS   x4

END
|---------------------------------------------|
|----------------------------------------0~---|
|----------------------------------------0~---|
|--99999999-55555555-00000000-7777-77*---0~---|


TABBED BY LURKNASTY
Show more