• Song:

    Nj Legion Iced Tea

  • Artist:

    A Day To Remember

  • Album:

    Homesick (Special Editi...

(afina??o d)

(0:00-0:15)
e|---------------------------------|
b|---------------------------------|
g|-3333--6666--13131313--10101010--|
d|-xxxx--xxxx--xxxx------xxxx------|
a|-1111--4444--11111111--8888------|
d|---------------------------------|

(0:16-0:31) (verse)
e|---------------------------------------------------------------------------|
b|---------------------------------------------------------------------------|
g|---------------------------------------------------------------------------|
d|-0-0-0--0-0-0--00000--0-0-0--0-0-0--0-0-0--00000--0-0-0--1111111144444444--|
a|-0-0-0--0-0-0--00000--0-0-0--0-0-0--0-0-0--00000--0-0-0--1111111144444444--|
e|-0-0-0--0-0-0--00000--0-0-0--0-0-0--0-0-0--00000--0-0-0--1111111144444444--|
All opens are palm muted.

(0:32-0:40)
e|------------------------------------------------------------------|
b|------------------------------------------------------------------|
g|------------------------------------------------------------------|
d|-11111111-44444444-8888-8-8-8-8-8-8-88886666-6-6-6-6-6-6----------|
a|-11111111-44444444-8888-8-8-8-8-8-8-88886666-6-6-6-6-6-6----------|
e|-11111111-44444444-8888-8-8-8-8-8-8-88886666-6-6-6-6-6-6-13\--|

(0:42-0:48)
e|-------------------------------------------------------------------------------------|
b|-------------------------------------------------------------------------------------|
g|--/18p17-----------------------------------------------------------------------------|
d|--------18h20p18---------------------------------------------------------------------|
a|----------------20-------------------------------------------------------------------|
e|-------------------------------------------------------------------------------------|
I'm pretty sure thats right.

(0:48-0:51)
e|--------------------------------------|
b|--------------------------------------|
g|-3333--6666--13131313--10101010-------|
d|-xxxx--xxxx--xxxx------xxxx------0-0--|
a|-1111--4444--11111111--8888------0-0--|
e|---------------------------------0-0--|

(0:52-1:04) (chorus)
e|----------------------------------|
b|----------------------------------|
g|--3333--6666--13131313--10101010--|
d|--xxxx--xxxx--xxxx------xxxx------|
a|--1111--4444--11111111--8888------|
e|----------------------------------|

(repeat everything from - 0:16-to chorus)

(2:05-2:18)
e|--------------------------------------------------------------------|
b|--------------------------------------------------------------------|
g|--------------------------------------------------------------------|
d|-1----------------4----------------8--------6--------4---------4-4--|
a|-1111111111111111144444444444444444888888888666666666444444444-4-4--|
e|-1111111111111111144444444444444444888888888666666666444444444-4-4--|
................ ................ ........ ........ ........

(2:1(b9)2:30)
e|---------------------------------------------------------------------------------------|
b|---------------------------------------------------------------------------------------|
g|---------------------------------------------------------------------------------------|
d|-1~-4~-8~-6~-4~------------------------------------------------------------------------|
a|-1~-4~-8~-6~-4~------------------------------------------------------------------------|
d|-1~-4~-8~-6~-4~------------------------------------------------------------------------|

And you know how to figure out the breakdown, its just simple open tremolos.
And then repeat the main riff and chorus.
| /  slide up
|   slide down
| h  hammer-on
| p  pull-off
| ~  vibrato
| +  harmonic
| x  mute note
Show more