• Song:

    What Was I Thinkin

  • Artist:

    Dierks Bentley

Dierks Bentley - What Was I Thinkin

Intro Tab

Capo on 1st

-----------------------|
-----------------------|
-----------------------|
---2p0-0-0-----0-0-----|   x2
-----------0h2-----2---|
-0-------------------3-|

-0-0-0-2-3-2-0-----------2-3-2-0-----------------------------7-5-0-0-0-|
---------------3-3h5-5-5---------3-3h5-5-5---3-------------------------|
-----------------------------------------------4-2-0-2-----------------|
-------------------------------------------------------2-2-2-----------|
-----------------------------------------------------------------------|
-----------------------------------------------------------------------|

-Tabbed by Hanny

This is as easy as I could make it. Enjoy
Show more