• Song:

    What Was I Thinkin

  • Artist:

    Dierks Bentley

-------------------------------------------------------------------------------
Tabbed by:Jason
Email:jd444@cox.net

Tuning:

e|---------------------------------------------------------------------------|
B|--5/6--6--6--8--9--8--6----5/6--6--6--8--9--8--6------5/6--6--6----4-------|
G|-------------------------8-------------------------8-------------------5p3-|
D|---------------------------------------------------------------------------|
A|---------------------------------------------------------------------------|
E|---------------------------------------------------------------------------|

e|------------------6/8--6---------------------------------------------------|
B|---------------------------9--6------6-------------------------------------|
G|-----3----------------------------8----------------------------------------|
D|--6-----6--3--3------------------------------------------------------------|
A|---------------------------------------------------------------------------|
E|---------------------------------------------------------------------------|
Show more