• Song:

    Halloween Americana

  • Artist:

    Everclear

  • Album:

    Songs From An American ...

Everclear - Halloween Americana (instumental)From the album
Songs From An American Movie Vol. 2: Good Time for a Bad Attitude

G|------------------------|
D|------------------------|                    3 X
A|--4--4--4--4h6--6--6----|
E|------------------------|


Main Riff (play 4 times)

G|---------------------------------------------------------------------------------------|
D|---------------------------------------------------------------------------------------|
A|--4--4--4h6--6--6--6-------------------------------------------------------------------|
E|------------------------5--5--5--5h7--7--7-----3--3--3h6--6--6-----3--3--3h4--4--4-----|


G|------------------------|
D|------------------------|       4 X
A|--4--4--4--4h6--6--6----|
E| -----------------------|

G|--------------------------------------------------------------|
D|--------------------------------------------------------------|
A|---6-------------------------6--6--6--6--6--6-----------------| Hit along with the rhythm
E|--------------------------------------------------------------|

Play Main Riff 6 times

G| ----------------------|
D| ----------------------|       4 X
A| --4--4--4--4h6--6--6--|
E| ----------------------|

The rest of the song is played with just guitars!

Have fun and enjoy!!!
Show more