• Song:

    Our Weird Year

  • Artist:

    Everclear

"Our Weird Year (Art's acoustic demo)"
Tabbed by: CopperForever@aol.com

Intro:
 A                     Em
|------------------------------|
|----------|-------0-|---------|
|---2----2-------2---------0h2-|
|--2----1------2---------2-----|
|-0--0-0---|-0-------|---------|
|----------------------0-------|

  A       B       D       F
|---------------------------------|
|---------------|-----------------|
|-----2-------2-------7--------10-|
|---2-------2-------7-------10----|
|-0-----0-2-----|-5-----5-8-------|
|---------------------------------|
 We have been living a lie...

A   F#          F          E
Our seven weird years were way too long

I know that that tab leaves much to be desired.  I apologize.
Show more