• Song:

    Santa Monica

  • Artist:

    Everclear

  • Album:

    Acoustic Live

Everclear
"Santa Monica"
Sparkle And Fade
Lyrics By Art Alexakis
Music By Everclear
Tabbed By JR (soggypeaches@yahoo.com)

These are all the little riff fills in the song

                  G
e-----------------3-----------------------|
b-------------------3---------------------|
g---------------------4-------------------|
d-----------------------5-----------------|
a-----------------------------------------|
e-----------------------------------------|
With my big black boots and an old suitcase


e---------|
b---------|
g-4-4-4-4-|
d---------|
a---------|
e---------|
 I Just Want To See Some Palm Trees

e------15h17-15h17-15h17-15h17-17--|b
b-15h17----------------------------|
g----------------------------------|
d----------------------------------|
a----------------------------------|
e----------------------------------|
  I just want to find some place to be alone

e---------------------------------------------------|
b---------------------------------------------------|
g-14-12---------12-14-12---------12-14-12-14-12-14--|b
d------14-12-14---------14-12-14--------------------|
a---------------------------------------------------|
e---------------------------------------------------|
  And Watch The World Die, We Can Live Beside the Ocean


e-17b
b----
g----
d----
a----
e----
 We can live beside the

e-15-15-15-15-15-15-15-15-15-15-15-15-15-15-|
b-X-X-X-X-X-X-X-X-X-X-X-X-X-X-X-X-X-X-X-X-X-|
g-12-12-12-12-12-12-12-12-12-12-12-12-12-12-|
d-------------------------------------------|
a-------------------------------------------|
e-------------------------------------------|
  ocean and leave the fire behind
  swim out past the breakers and watch the world die
  we can live beside the ocean
  leave the fire behind
  swim out past the breakers and watch teh world die

e-----------------------|
b-----------------------|
g-4-4--4-4-0-0-4-4--12\-|
d-5-5--5-5-0-0-5-5------|
a-5-5--5-5-0-0-5-5------|
e-3-3--3-3-0-0-3-3------|
 play this until the end of the song
Show more