• Song:

    Good Friday

  • Artist:

    Guttermouth

  • Album:

    Musical Monkey

Guttermouth 
Good Friday

Intro for bass..
A-333-

Verse-Keep Playing...
G------------------------
D-55-5-55-5-55-5-5-------
A------------------333---
E------------------------

Chours 
G---------------------------
D---------------------------
A-55-----------55-----------
E----55-33-55-----55-33-55--

After second time u play the verse...
D-55-5-55-5-55-5-55-5--

Verse
Chours

KoRn Part~!
G--------------------------------------
D--------------------------------------
A---------------------0---1----0----1--
E-3-3-3-3-3-3-3-3---3---3----3----3----

Thats it so rate
Show more