• Song:

    Hit Machine

  • Artist:

    Guttermouth

  • Album:

    Gorgeous

========================================================
               Guttermouth - Hit Machine
========================================================

Tabbed by: Profesh
Email: eric_jaeger@hotmail.com

/3 = Triplet

Intro:
G|----------------|
D|----------------|
A|----------------| x4
E|-7777---7-7-7-|


Verse:
G|---------------------------------|
D|---------------------------------|
A|---------------------------------|
E|-7---7---7---7-7-7---7---7---5-6-|


Chorus:
G|-----------------------|
D|---/3-----/3-----/3-|
A|-----5------87-7-7-5---|
E|-7-77--5-5-5--------77-|


Outro:
G|-------------------------------------------------|
D|---/3-----/3------------/3-----/3---/3------|
A|-----5------5-----5-7-8-----5------5-----5-------|
E|-7-77--5-5-5-5-5-5------7-77--5-5-5-5-5-5-5--6-7-|

You can figure out the order and what-not yourself...
The only inaccuracy is in the intro... I didn't tab
out the strumming variations.
========================================================
Show more