• Song:

    Without A Trace

  • Artist:

    Soul Asylum

  • Album:

    After the Flood: Live F...

This is my version of Soul Asylum song "Without a Trace". I think it is quite accurate. 
just have added picking pattern. I think it sounds well.


Soul Asylum
Without the trace

Intro: G a C D

G           a                 C                 D
I fell in love with a hooker she laughed in my face
--------3---------------0----------------0----------------2-------------|
----------0---------------1----------------1----------------3-----------|
-----0------0---------2-----2---------0------0---------2------2---------|
---0----------0-----2---------2-----2----------2-----0----------0-------|
-2----------------0---------------3----------------0--------------------|
------------------------------------------------------------------------|

G           a           C           D
So seriously I took her I was a disgrace

--------3---------------0----------------0----------------2-------------|
----------0---------------1----------------1----------------3-----------|
-----0------0---------2-----2---------0------0---------2------2---------|
---0----------0-----2---------2-----2----------2-----0----------0-------|
-2----------------0---------------3----------------0--------------------|
------------------------------------------------------------------------|

C             D                G
I was out of line I was out of place
         C
Out of time to save face
C             D              G               C
See the open mouth of my suitcase saying leave this place
C                    D     C                     D
Leave without a trace      Leave without a trace
C     D         G
Leave without a trace

G a C D

G             a            C           D
I tried to get a good job with honest pay

--------3---------------0----------------0----------------2-------------|
----------0---------------1----------------1----------------3-----------|
-----0------0---------2-----2---------0------0---------2------2---------|
---0----------0-----2---------2-----2----------2-----0----------0-------|
-2----------------0---------------3----------------0--------------------|
------------------------------------------------------------------------|

G               a            C               D
might as well join the mob, the benefits are ok
--------3---------------0----------------0----------------2-------------|
----------0---------------1----------------1----------------3-----------|
-----0------0---------2-----2---------0------0---------2------2---------|
---0----------0-----2---------2-----2----------2-----0----------0-------|
-2----------------0---------------3----------------0--------------------|
------------------------------------------------------------------------|

Standing in the sun with a popsicle
anything is possible,
with a lot of luck and a pretty face
and some time to waste
leave without a trace
leave without a trace
leave without a trace

G a C D
G                 a           C             D
I tried to dance at a funeral New Orleans style

--------3---------------0----------------0----------------2-------------|
----------0---------------1----------------1----------------3-----------|
-----0------0---------2-----2---------0------0---------2------2---------|
---0----------0-----2---------2-----2----------2-----0----------0-------|
-2----------------0---------------3----------------0--------------------|
------------------------------------------------------------------------|

G                          a    C          D
I joined the Grave Daners Union I had to file
--------3---------------0----------------0----------------2-------------|
----------0---------------1----------------1----------------3-----------|
-----0------0---------2-----2---------0------0---------2------2---------|
---0----------0-----2---------2-----2----------2-----0----------0-------|
-2----------------0---------------3----------------0--------------------|
------------------------------------------------------------------------|
C                  D                    G
trying to do the right thing play it straight

---------0----------------2---------------3-----------|
-----------1----------------3---------------0---------|
------0------0---------2------2--------0------0-------|
----2----------2-----0----------0----0----------0-----|
--3----------------0---------------2------------------|
------------------------------------------------------|

                  C                      C
the right thing changes from state to state
---------0-----------------0--------|
-----------1-----------------1------|
------0------0----------0------0----|
----2----------2------2----------2--|
--3----------------3----------------|
------------------------------------|

     D                      G
don't forget to take your mace

--------2---------------3-----------|
----------3---------------0---------|
-----2------2--------0------0-------|
---0----------0----0----------0-----|
-0---------------2------------------|
------------------------------------|

           C
if you're out walking late

---------0---------|
-----------1-------|
------0------0-----|
----2----------2---|
--3----------------|
-------------------|

C                    D
I liked to see your face
C                    D
You left without a trace
C     D         G
Leave without a trace

ENDING: G a C D,   G a C D,   ....

SOUL ASYLUM FOREVER
oxygen909
Show more