• Song:

    Renegade

  • Artist:

    Warren Zevon

  • Album:

    Mr. Bad Example

Verse:
G|-----------------------------------------------------------------------|
D|-----0----2-----0-00------------------0-00-----------------0-00--0-----|
A|-0-2--0-2------0----0----0-2-22-0----0----0----0-2-22-----0-------0-00-|
E|----3----3-3-33------3-33--------3-33------3-33-------3-33-------------|

Chorus:
G|----------------------|
D|----------------------|
A|-5-4-2-----5-4-2------|
E|------2-3-5-----2-3-5-|

Bridge:					                     Outro:
G|----------------------------|-----------------|
D|-----0--0-4-----------------|-----0----0----0-|
A|-0-2---0---2-4-2-0-00-2-0-0-|-0-2--0-2--0-2---|
E|----3--------------------3--|----3----3----3--|
Show more