• Song:

    Long Way Down

  • Artist:

    Guster

  • Album:

    Keep It Together

Artist: Guster
Song: Long Way Down
Album: Keep it Together


Here’s an easy one for you. Good song too.

This is the main riff that hes playing for the whole song. 
Listen to the song to figure out the strumming patterns.


        C                   Gm                
E|--0-----------||--3-----------||                            
B|--1-----------||--3-----------|| 
G|--0-----------||--3-----------||     Repeat 1x
D|--2-----------||--5-----------|| 
A|--3-----------||--X-----------|| 
E|--X-----------||--X-----------|| 

Then play this the third time

       C                    Gm                Bbadd9         
E|--0-----------||--3-----------||--1-----------|| 
B|--1-----------||--3-----------||--3-----------||                             
G|--0-----------||--3-----------||--3-----------||     
D|--2-----------||--5-----------||--1-----------||                 
A|--3-----------||--X-----------||--1-----------||                       
E|--X-----------||--X-----------||--X-----------||
Show more