• Song:

    So Long

  • Artist:

    Guster

  • Album:

    Collection

GUSTER - So Long
Tabber: Spilna
Standard Tuning

*LISTEN TO CD FOR RYTHEM*

GUITAR ONE
e|--------------------------|
B|--------------------------|
G|------9--11--7-----9--7---|
D|---7--9--11--7--7--9--7---| play through twice alone
A|---7--7--9---5--7--7--5---| (then twice with guitar 2)
E|---5------------5---------|

Basically these power chords throughout the whole song.

GUITAR TWO
e|------12----9----12----9----12----9-------|
B|---10----12---10----12---10----12---10~---|
G|------------------------------------------|  repeat this
D|------------------------------------------|
A|------------------------------------------|
E|------------------------------------------|
(everytime you play the small string, when you are switching play a very quick open on the same small string) Listen to the CD to understand what i am talking about. It will come naturally.

After you play the main P-Chords w/ guitar twice it switches to this:

GUITAR ONE
e|----------------------------------|
B|----------------------------------|
G|----------------------------------|
D|--------9---11---7------9--7--7---|  go through twice W/ guitar 2
A|----7--7---9----5---7--7--5--5----|
E|---5---------------5--------------|


GUITAR TWO
e|----------------------------------------|
B|----10--10--10--12p10--10--10--10--10---|
G|---9---9---9---9------9---9---9---9-----|  play twice
D|----------------------------------------|
A|----------------------------------------|
E|----------------------------------------|

Then is goes back to the power chords w/ the first GUITAR 2

after that there is a part when He sings: and in my defense... the guitar goes like this:

e|-----------------------------|
B|---10~-9~-7~-5~-10~-9~-7~----|
G|-----------------------------|
D|-----------------------------|
A|-----------------------------|
E|-----------------------------|

HOPE THIS HELPS!! Couldnt have done this without ROBB
Show more