• Song:

    Rule My World Intro

  • Artist:

    Kings Of Convenience

sponsored links
Capo on 2nd Fret

e|----------------------------------------------------------------------|
B|----------------------------------------------------------------------|
G|----------------------------------------------------------------------|
D|----------------------2----2--0--2--0--2--4---------------------------|
A|--2----2--0--2--0--2-------------------------0----0----0-----0--4--4--|
E|----------------------------------------------------2-----2-----------|

-------------------------------------|
-------------------------------------|
-------------------------------------|
-------------------------------------|
--0--4--0--4--5--2-------------------|
-------------------------------------|


e|--------------------------------------------------------|
B|--------------------------------------------------------|
G|--------------------------------------------------------|
D|----------------------2----2--0--2--0--2--4-------------|
A|------2--0--2--0--2-------------------------0----0----0-|
E|----------------------------------------------------2---|

---------------------------------------------------|
---------------------------------------------------|
---------------------------------------------------|
---------------------------------------------------|
----0--4--5--7--(b9)-(b9)-12---------------------------|
--2------------------------------------------------|
Show more

Warning: Smarty error: unable to read resource: "ads ext_up.html" in /home/black_magic/musicnoteslib.com/lib/Smarty.class.php on line 1093
sponsored links
sponsored links